欢迎访问摩臣2娱乐

当前位置

主页 > 摩臣2开户 > beyond > 无尽空虚吉他谱_beyond无尽空虚吉他谱

无尽空虚吉他谱_beyond无尽空虚吉他谱

作者:摩臣2娱乐 来源:http://www.58nlh.com/ 时间:2014-11-23
歌曲名 演唱 作词 作曲 基调

beyond无尽空虚吉他谱

无尽空虚吉他谱
无尽空虚吉他谱


无尽空虚吉他谱歌谱

歌曲名:无尽空虚 
歌手/乐队:Beyond 
编配者(转载来源):摩臣2娱乐
-------------------------------------------------------------------------------


   ------15-----12-------------------------15-----12-------------15------12-----------------------15-----12---
   ----------15--------------------------13----15----------------------15-----------------------13------15----
   -------------------14----12----14-------------------14----------------------14---12---14-------------------
   -----------------------------------------------------------------------------------------------------------
   -----------------------------------------------------------------------------------------------------------
   -----------------------------------------------------------------------------------------------------------

   ------15-----12-------------------------15-----12-------------15------12-----------------------------15----
   ----------15-------------------------13-----15----------------------15-----------------------13------------
   -------------------14----12----14-------------------14----------------------14---12---14-------------------
   -----------------------------------------------------------------------------------------------------------
   -----------------------------------------------------------------------------------------------------------
   -----------------------------------------------------------------------------------------------------------

   Am            Dm             G7               C  Em  Am
   为何在这里     疲倦像半醉     曾在这空间   跟你相  拥  抱
   ------------------------------
   ---1---0----------------------
   -----------2---0--------------
   ------------------------------
   ------------------------------
   ------------------------------

         Dm               Em                 F
 # 只有唏嘘的追忆     无言落寞地落泪     谁在这晚里放纵
             G7            C                      G
   与他温馨     *无尽空虚     似把刀锋静静穿过心窝     woo~~
             Dm                     G          C
   期待的爱     怎么一生总不可碰倒*     woo~~# *前段solo*
   Am            Dm            G7               C   Em  Am
   仍然在这里     无力像半醉     谁令我的心   此际多  冰  冷

   ---------------------------
   -----1----0----------------
   ---------------2----0------
   ---------------------------
   ---------------------------
   ---------------------------
   Repeat #

   ------------------------5---7---5------------------12--12--12--12--12--13---15----17----17----
   ---------------5---6----------------5---------------------------------------------------------
   ------5---7-----------------------------5---4---4---------------------------------------------
   ----------------------------------------------------------------------------------------------
   ----------------------------------------------------------------------------------------------
   ----------------------------------------------------------------------------------------------

   ---15-----13---12---13---12----------------7---8---10---8---7---------------------------------
   ------------------------------------------10-------------------------8--------10---10---------
   --------------------------------------9-------------------------------------------------------
   ----------------------------------------------------------------------------------------------
   ----------------------------------------------------------------------------------------------
   ----------------------------------------------------------------------------------------------

   ----------------------------------------------------------------------------------------------
   -----------------------5---6----------5----5--------------------------------------------------
   ---4--4--5---5---7-----------7-------------------------4----5---7---5---4---------------------
   -----------------------------------------------------7--------------------------5------7---7--
   ----------------------------------------------------------------------------------------------
   ----------------------------------------------------------------------------------------------

   ---13---10--------------------------------------------------------------------15--------------
   ---------------12---9---10---9--------------------------------17-------15--------13-----------
   ------------------------------------10---7----------------------------------------------------
   ----------------------------------------------10-----9----------------------------------------
   ----------------------------------------------------------------------------------------------
   ----------------------------------------------------------------------------------------------

   ----------------------------------------------------------------------------------------------
   ----12--------------------12---------------------15-------------------------------------------
   -----------9---10---9------------9---10---9---------------------------------------------------
   ----------------------------------------------------------------------------------------------
   ----------------------------------------------------------------------------------------------
   ----------------------------------------------------------------------------------------------
   Repeat  *
   Repeat  *

   woo~~~ Am
            F      G        C     Em    Am
   Am            F       G      C      Em    Am la  la la
   la   ~~~~~~~~~~~~~~~~~~~~~~~~~~~ Am            F       G       C       Em   Am
   la    la la  la       la     la      la ~~~~~~~~~~~~~~
   Am            F       G        C       Em   Am
   la     la   la   la    la   la    la   ~~~~~~~~~~~~~~~



无尽空虚吉他谱
无尽空虚吉他谱


无尽空虚吉他谱
无尽空虚吉他谱
无尽空虚吉他谱
无尽空虚吉他谱


无尽空虚吉他谱

为何在这里 疲倦象半醉
曾在这空间 跟你相拥抱
只有唏嘘的追忆 无言落寞地落泪
谁在这晚里放纵与她温馨

无尽空虚 似把刀锋静静穿过心窝
期待的爱 怎么一生总不可碰到

仍然在这里 无力象半醉
谁令我的心 此际多冰冷
只有唏嘘的追忆 无言落寞地落泪
谁在这晚里放纵与她温馨

无尽空虚 似把刀锋静静穿过心窝
期待的爱 怎么一生总不可碰到

无尽空虚 似把刀锋静静穿过心窝
期待的爱 怎么一生总不可碰到
无尽空虚 似把刀锋静静穿过心窝
期待的爱 怎么一生总不可碰到
    标签: